ISO-10303-21;
HEADER;
FILE_DESCRIPTION (( 'STEP AP203' ),
    '1' );
FILE_NAME ('MQWP-25.4-780.STEP',
    '2020-12-22T09:30:47',
    ( '' ),
    ( '' ),
    'SwSTEP 2.0',
    'SolidWorks 2020',
    '' );
FILE_SCHEMA (( 'CONFIG_CONTROL_DESIGN' ));
ENDSEC;

DATA;
#1 = CARTESIAN_POINT ( 'NONE',  ( 0.9999999999999995559, 0.000000000000000000, 0.000000000000000000 ) ) ;
#2 = CC_DESIGN_SECURITY_CLASSIFICATION ( #21, ( #97 ) ) ;
#3 = APPROVAL_STATUS ( 'not_yet_approved' ) ;
#4 = DATE_AND_TIME ( #84, #72 ) ;
#5 = DIRECTION ( 'NONE',  ( 0.000000000000000000, 0.000000000000000000, 1.000000000000000000 ) ) ;
#6 = PRODUCT_DEFINITION ( 'UNKNOWN', '', #97, #54 ) ;
#7 = PERSON ( 'UNSPECIFIED', 'UNSPECIFIED', 'UNSPECIFIED', ('UNSPECIFIED'), ('UNSPECIFIED'), ('UNSPECIFIED') ) ;
#8 = AXIS2_PLACEMENT_3D ( 'NONE', #70, #119, #82 ) ;
#9 = AXIS2_PLACEMENT_3D ( 'NONE', #134, #150, #5 ) ;
#10 = ORIENTED_EDGE ( 'NONE', *, *, #62, .T. ) ;
#11 = AXIS2_PLACEMENT_3D ( 'NONE', #13, #136, #17 ) ;
#12 = CARTESIAN_POINT ( 'NONE',  ( 0.9999999999999995559, 3.673940397442059868E-16, -3.000000000000000000 ) ) ;
#13 = CARTESIAN_POINT ( 'NONE',  ( 0.000000000000000000, 0.000000000000000000, 0.000000000000000000 ) ) ;
#14 = DIRECTION ( 'NONE',  ( 1.000000000000000000, 0.000000000000000000, 0.000000000000000000 ) ) ;
#15 = PERSON_AND_ORGANIZATION_ROLE ( 'design_owner' ) ;
#16 = LOCAL_TIME ( 17, 30, 47.00000000000000000, #69 ) ;
#17 = DIRECTION ( 'NONE',  ( 0.000000000000000000, 0.000000000000000000, 1.000000000000000000 ) ) ;
#18 = APPROVAL_ROLE ( '' ) ;
#19 = LOCAL_TIME ( 17, 30, 47.00000000000000000, #113 ) ;
#20 = SHAPE_DEFINITION_REPRESENTATION ( #128, #76 ) ;
#21 = SECURITY_CLASSIFICATION ( '', '', #56 ) ;
#22 = CARTESIAN_POINT ( 'NONE',  ( 0.000000000000000000, 0.000000000000000000, 0.000000000000000000 ) ) ;
#23 = PRODUCT ( 'MQWP-25.4-780', 'MQWP-25.4-780', '', ( #55 ) ) ;
#24 = DIRECTION ( 'NONE',  ( -1.000000000000000000, -0.000000000000000000, -0.000000000000000000 ) ) ;
#25 = ORIENTED_EDGE ( 'NONE', *, *, #123, .T. ) ;
#26 = CC_DESIGN_PERSON_AND_ORGANIZATION_ASSIGNMENT ( #68, #121, ( #6 ) ) ;
#27 = APPLICATION_PROTOCOL_DEFINITION ( 'international standard', 'config_control_design', 1994, #37 ) ;
#28 = AXIS2_PLACEMENT_3D ( 'NONE', #148, #52, #36 ) ;
#29 =( GEOMETRIC_REPRESENTATION_CONTEXT ( 3 ) GLOBAL_UNCERTAINTY_ASSIGNED_CONTEXT ( ( #141 ) ) GLOBAL_UNIT_ASSIGNED_CONTEXT ( ( #147, #160, #96 ) ) REPRESENTATION_CONTEXT ( 'NONE', 'WORKASPACE' ) );
#30 = CARTESIAN_POINT ( 'NONE',  ( 0.000000000000000000, 0.000000000000000000, 0.000000000000000000 ) ) ;
#31 = CC_DESIGN_PERSON_AND_ORGANIZATION_ASSIGNMENT ( #149, #15, ( #23 ) ) ;
#32 = APPLICATION_CONTEXT ( 'configuration controlled 3d designs of mechanical parts and assemblies' ) ;
#33 = ORIENTED_EDGE ( 'NONE', *, *, #44, .T. ) ;
#34 = ORIENTED_EDGE ( 'NONE', *, *, #44, .F. ) ;
#35 = CYLINDRICAL_SURFACE ( 'NONE', #58, 3.000000000000000000 ) ;
#36 = DIRECTION ( 'NONE',  ( 0.000000000000000000, 0.000000000000000000, 1.000000000000000000 ) ) ;
#37 = APPLICATION_CONTEXT ( 'configuration controlled 3d designs of mechanical parts and assemblies' ) ;
#38 = DATE_TIME_ROLE ( 'creation_date' ) ;
#39 = PERSON_AND_ORGANIZATION ( #7, #152 ) ;
#40 = APPROVAL ( #74, 'UNSPECIFIED' ) ;
#41 = ADVANCED_FACE ( 'NONE', ( #159 ), #117, .F. ) ;
#42 = PERSON_AND_ORGANIZATION ( #7, #152 ) ;
#43 = AXIS2_PLACEMENT_3D ( 'NONE', #30, #132, #109 ) ;
#44 = EDGE_CURVE ( 'NONE', #92, #131, #138, .T. ) ;
#45 = PERSON_AND_ORGANIZATION_ROLE ( 'creator' ) ;
#46 = EDGE_LOOP ( 'NONE', ( #101, #158 ) ) ;
#47 = ORIENTED_EDGE ( 'NONE', *, *, #154, .F. ) ;
#48 = CARTESIAN_POINT ( 'NONE',  ( 0.000000000000000000, 0.000000000000000000, 3.000000000000000000 ) ) ;
#49 = DIRECTION ( 'NONE',  ( -0.000000000000000000, 0.000000000000000000, 1.000000000000000000 ) ) ;
#50 = DIRECTION ( 'NONE',  ( 0.000000000000000000, 0.000000000000000000, 1.000000000000000000 ) ) ;
#51 = VECTOR ( 'NONE', #80, 1000.000000000000000 ) ;
#52 = DIRECTION ( 'NONE',  ( -1.000000000000000000, -0.000000000000000000, -0.000000000000000000 ) ) ;
#53 = COORDINATED_UNIVERSAL_TIME_OFFSET ( 8, 0, .AHEAD. ) ;
#54 = DESIGN_CONTEXT ( 'detailed design', #32, 'design' ) ;
#55 = MECHANICAL_CONTEXT ( 'NONE', #37, 'mechanical' ) ;
#56 = SECURITY_CLASSIFICATION_LEVEL ( 'unclassified' ) ;
#57 = PERSON_AND_ORGANIZATION ( #7, #152 ) ;
#58 = AXIS2_PLACEMENT_3D ( 'NONE', #22, #115, #100 ) ;
#59 = PERSON_AND_ORGANIZATION_ROLE ( 'design_supplier' ) ;
#60 = CARTESIAN_POINT ( 'NONE',  ( 0.9999999999999995559, 0.000000000000000000, 3.000000000000000000 ) ) ;
#61 = ORIENTED_EDGE ( 'NONE', *, *, #123, .F. ) ;
#62 = EDGE_CURVE ( 'NONE', #92, #144, #104, .T. ) ;
#63 = PLANE ( 'NONE',  #155 ) ;
#64 = PRODUCT_RELATED_PRODUCT_CATEGORY ( 'detail', '', ( #23 ) ) ;
#65 = CARTESIAN_POINT ( 'NONE',  ( 2.449293598294706907E-16, 0.000000000000000000, 3.000000000000000000 ) ) ;
#66 = ORIENTED_EDGE ( 'NONE', *, *, #172, .F. ) ;
#67 = APPROVAL_ROLE ( '' ) ;
#68 = PERSON_AND_ORGANIZATION ( #7, #152 ) ;
#69 = COORDINATED_UNIVERSAL_TIME_OFFSET ( 8, 0, .AHEAD. ) ;
#70 = CARTESIAN_POINT ( 'NONE',  ( 0.9999999999999995559, 0.000000000000000000, 0.000000000000000000 ) ) ;
#71 = AXIS2_PLACEMENT_3D ( 'NONE', #171, #14, #91 ) ;
#72 = LOCAL_TIME ( 17, 30, 47.00000000000000000, #120 ) ;
#73 = PERSON_AND_ORGANIZATION ( #7, #152 ) ;
#74 = APPROVAL_STATUS ( 'not_yet_approved' ) ;
#75 = CIRCLE ( 'NONE', #28, 3.000000000000000000 ) ;
#76 = ADVANCED_BREP_SHAPE_REPRESENTATION ( 'MQWP-25.4-780', ( #102, #43 ), #29 ) ;
#77 = DATE_TIME_ROLE ( 'classification_date' ) ;
#78 = PERSON_AND_ORGANIZATION_ROLE ( 'classification_officer' ) ;
#79 = CARTESIAN_POINT ( 'NONE',  ( 0.9999999999999997780, 3.000000000000000000, 0.000000000000000000 ) ) ;
#80 = DIRECTION ( 'NONE',  ( -1.000000000000000000, -0.000000000000000000, -0.000000000000000000 ) ) ;
#81 = ORIENTED_EDGE ( 'NONE', *, *, #166, .T. ) ;
#82 = DIRECTION ( 'NONE',  ( 0.000000000000000000, 0.000000000000000000, 1.000000000000000000 ) ) ;
#83 = CIRCLE ( 'NONE', #9, 3.000000000000000000 ) ;
#84 = CALENDAR_DATE ( 2020, 22, 12 ) ;
#85 = FACE_OUTER_BOUND ( 'NONE', #127, .T. ) ;
#86 = APPROVAL ( #3, 'UNSPECIFIED' ) ;
#87 = COORDINATED_UNIVERSAL_TIME_OFFSET ( 8, 0, .AHEAD. ) ;
#88 = DATE_AND_TIME ( #122, #16 ) ;
#89 = CC_DESIGN_DATE_AND_TIME_ASSIGNMENT ( #111, #77, ( #21 ) ) ;
#90 = CARTESIAN_POINT ( 'NONE',  ( 0.000000000000000000, 3.673940397442059868E-16, -3.000000000000000000 ) ) ;
#91 = DIRECTION ( 'NONE',  ( 0.000000000000000000, 0.000000000000000000, -1.000000000000000000 ) ) ;
#92 = VERTEX_POINT ( 'NONE', #60 ) ;
#93 = APPROVAL_PERSON_ORGANIZATION ( #105, #86, #67 ) ;
#94 = EDGE_LOOP ( 'NONE', ( #34, #146 ) ) ;
#95 = APPROVAL_STATUS ( 'not_yet_approved' ) ;
#96 =( NAMED_UNIT ( * ) SI_UNIT ( $, .STERADIAN. ) SOLID_ANGLE_UNIT ( ) );
#97 = PRODUCT_DEFINITION_FORMATION_WITH_SPECIFIED_SOURCE ( 'ANY', '', #23, .NOT_KNOWN. ) ;
#98 = CALENDAR_DATE ( 2020, 22, 12 ) ;
#99 = CIRCLE ( 'NONE', #8, 3.000000000000000000 ) ;
#100 = DIRECTION ( 'NONE',  ( 0.000000000000000000, 0.000000000000000000, 1.000000000000000000 ) ) ;
#101 = ORIENTED_EDGE ( 'NONE', *, *, #172, .T. ) ;
#102 = MANIFOLD_SOLID_BREP ( 'Ðý×', #165 ) ;
#103 = DIRECTION ( 'NONE',  ( -1.000000000000000000, -0.000000000000000000, -0.000000000000000000 ) ) ;
#104 = LINE ( 'NONE', #48, #51 ) ;
#105 = PERSON_AND_ORGANIZATION ( #7, #152 ) ;
#106 = APPROVAL ( #95, 'UNSPECIFIED' ) ;
#107 = CALENDAR_DATE ( 2020, 22, 12 ) ;
#108 = ADVANCED_FACE ( 'NONE', ( #173 ), #35, .T. ) ;
#109 = DIRECTION ( 'NONE',  ( 1.000000000000000000, 0.000000000000000000, 0.000000000000000000 ) ) ;
#110 = PERSON_AND_ORGANIZATION ( #7, #152 ) ;
#111 = DATE_AND_TIME ( #142, #125 ) ;
#112 = CC_DESIGN_APPROVAL ( #40, ( #21 ) ) ;
#113 = COORDINATED_UNIVERSAL_TIME_OFFSET ( 8, 0, .AHEAD. ) ;
#114 = APPROVAL_DATE_TIME ( #88, #106 ) ;
#115 = DIRECTION ( 'NONE',  ( -1.000000000000000000, -0.000000000000000000, -0.000000000000000000 ) ) ;
#116 = CC_DESIGN_PERSON_AND_ORGANIZATION_ASSIGNMENT ( #42, #45, ( #97 ) ) ;
#117 = PLANE ( 'NONE',  #71 ) ;
#118 = DIRECTION ( 'NONE',  ( -1.000000000000000000, 0.000000000000000000, -0.000000000000000000 ) ) ;
#119 = DIRECTION ( 'NONE',  ( -1.000000000000000000, -0.000000000000000000, -0.000000000000000000 ) ) ;
#120 = COORDINATED_UNIVERSAL_TIME_OFFSET ( 8, 0, .AHEAD. ) ;
#121 = PERSON_AND_ORGANIZATION_ROLE ( 'creator' ) ;
#122 = CALENDAR_DATE ( 2020, 22, 12 ) ;
#123 = EDGE_CURVE ( 'NONE', #131, #170, #130, .T. ) ;
#124 = CARTESIAN_POINT ( 'NONE',  ( 2.449293598294706907E-16, 3.673940397442059868E-16, -3.000000000000000000 ) ) ;
#125 = LOCAL_TIME ( 17, 30, 47.00000000000000000, #87 ) ;
#126 = AXIS2_PLACEMENT_3D ( 'NONE', #1, #24, #50 ) ;
#127 = EDGE_LOOP ( 'NONE', ( #33, #25, #66, #129 ) ) ;
#128 = PRODUCT_DEFINITION_SHAPE ( 'NONE', 'NONE',  #6 ) ;
#129 = ORIENTED_EDGE ( 'NONE', *, *, #62, .F. ) ;
#130 = LINE ( 'NONE', #90, #133 ) ;
#131 = VERTEX_POINT ( 'NONE', #12 ) ;
#132 = DIRECTION ( 'NONE',  ( 0.000000000000000000, 0.000000000000000000, 1.000000000000000000 ) ) ;
#133 = VECTOR ( 'NONE', #103, 1000.000000000000000 ) ;
#134 = CARTESIAN_POINT ( 'NONE',  ( 2.449293598294706907E-16, 0.000000000000000000, 0.000000000000000000 ) ) ;
#135 = APPROVAL_ROLE ( '' ) ;
#136 = DIRECTION ( 'NONE',  ( -1.000000000000000000, -0.000000000000000000, -0.000000000000000000 ) ) ;
#137 = CC_DESIGN_DATE_AND_TIME_ASSIGNMENT ( #163, #38, ( #6 ) ) ;
#138 = CIRCLE ( 'NONE', #126, 3.000000000000000000 ) ;
#139 = LOCAL_TIME ( 17, 30, 47.00000000000000000, #53 ) ;
#140 = ADVANCED_FACE ( 'NONE', ( #143 ), #63, .F. ) ;
#141 = UNCERTAINTY_MEASURE_WITH_UNIT (LENGTH_MEASURE( 1.000000000000000082E-05 ), #147, 'distance_accuracy_value', 'NONE');
#142 = CALENDAR_DATE ( 2020, 22, 12 ) ;
#143 = FACE_OUTER_BOUND ( 'NONE', #94, .T. ) ;
#144 = VERTEX_POINT ( 'NONE', #65 ) ;
#145 = CC_DESIGN_APPROVAL ( #86, ( #6 ) ) ;
#146 = ORIENTED_EDGE ( 'NONE', *, *, #166, .F. ) ;
#147 =( LENGTH_UNIT ( ) NAMED_UNIT ( * ) SI_UNIT ( .MILLI., .METRE. ) );
#148 = CARTESIAN_POINT ( 'NONE',  ( 2.449293598294706907E-16, 0.000000000000000000, 0.000000000000000000 ) ) ;
#149 = PERSON_AND_ORGANIZATION ( #7, #152 ) ;
#150 = DIRECTION ( 'NONE',  ( -1.000000000000000000, -0.000000000000000000, -0.000000000000000000 ) ) ;
#151 = APPROVAL_DATE_TIME ( #168, #40 ) ;
#152 = ORGANIZATION ( 'UNSPECIFIED', 'UNSPECIFIED', '' ) ;
#153 = ADVANCED_FACE ( 'NONE', ( #85 ), #175, .T. ) ;
#154 = EDGE_CURVE ( 'NONE', #170, #144, #83, .T. ) ;
#155 = AXIS2_PLACEMENT_3D ( 'NONE', #79, #118, #49 ) ;
#156 = CC_DESIGN_APPROVAL ( #106, ( #97 ) ) ;
#157 = EDGE_LOOP ( 'NONE', ( #61, #81, #10, #47 ) ) ;
#158 = ORIENTED_EDGE ( 'NONE', *, *, #154, .T. ) ;
#159 = FACE_OUTER_BOUND ( 'NONE', #46, .T. ) ;
#160 =( NAMED_UNIT ( * ) PLANE_ANGLE_UNIT ( ) SI_UNIT ( $, .RADIAN. ) );
#161 = APPROVAL_PERSON_ORGANIZATION ( #110, #40, #18 ) ;
#162 = APPROVAL_DATE_TIME ( #4, #86 ) ;
#163 = DATE_AND_TIME ( #107, #139 ) ;
#164 = APPLICATION_PROTOCOL_DEFINITION ( 'international standard', 'config_control_design', 1994, #32 ) ;
#165 = CLOSED_SHELL ( 'NONE', ( #153, #108, #140, #41 ) ) ;
#166 = EDGE_CURVE ( 'NONE', #131, #92, #99, .T. ) ;
#167 = APPROVAL_PERSON_ORGANIZATION ( #39, #106, #135 ) ;
#168 = DATE_AND_TIME ( #98, #19 ) ;
#169 = CC_DESIGN_PERSON_AND_ORGANIZATION_ASSIGNMENT ( #73, #59, ( #97 ) ) ;
#170 = VERTEX_POINT ( 'NONE', #124 ) ;
#171 = CARTESIAN_POINT ( 'NONE',  ( 1.224646799147353454E-16, 3.000000000000000000, 0.000000000000000000 ) ) ;
#172 = EDGE_CURVE ( 'NONE', #144, #170, #75, .T. ) ;
#173 = FACE_OUTER_BOUND ( 'NONE', #157, .T. ) ;
#174 = CC_DESIGN_PERSON_AND_ORGANIZATION_ASSIGNMENT ( #57, #78, ( #21 ) ) ;
#175 = CYLINDRICAL_SURFACE ( 'NONE', #11, 3.000000000000000000 ) ;
ENDSEC;
END-ISO-10303-21;
